.........

您现在的位置: 中国乐手网 >> 吉他技术专题 >> 电吉他 >> 电吉他教程 >> 吉他教程正文
...

您想找的吉他教程是:

...

摇滚金属 - 第一课

作者:未知    吉他教程来源:蓝色空间    点击数:518    更新时间:2005-5-22
   

在第一课中,我们要学习小调音阶(Minor scale)。在重金属音乐中,小调音阶很常用,事实上在任何类型的音乐中,小调音阶都很有用,因此,如果你不是很喜欢重金属,在这节课程中也照样能学到一些东西。小调音阶听上去色彩暗淡,与大调相比,小调感觉更悲伤,更情绪化。

重金属音乐差不多有95%的歌曲都是小调的,或是半音调式(Chromatic Key)。也许你已经知道半音调式了,简单说就是吉他指板上的所有音都可以使用的音阶调式,半音音阶由十二个音组成。我们可以把小调音阶看作是半音音阶的一个子集,而小调五声音阶是小调音阶的一个子集。小调五声音阶是布鲁斯音乐中最常使用的一个音阶,布鲁斯是重金属的一个重要根源,重金属早期的一些雏形乐队象Led Zepplin所演奏的音乐大多源自摇滚布鲁斯。

下面是一个自然小调音阶

      全    半    全     全     半    全     全
|   |   |   |   |   |   |   |   |   |   |   |   |   |
| 1 |   | 2 | 3 |   | 4 |   | 5 | 6 |   | 7 |   | 1 |
|   |   |   |   |   |   |   |   |   |   |   |   |   |
(根音)                                          (根音)
让我们用G调来举个例子,首先我们先写出G半音音阶的所有音:

G - Ab - A - Bb - B - C - Db - D - Eb - E - F - Gb - G

请记住,带降号(b)的音表示在钢琴上的黑键,而在吉他上,G半音音阶就是以G音开始的十二个连续的音品。

现在我们挑选出组成G小调音阶的音:

G - - A - Bb - - C - - D - Eb - - F - - G

这就是一个G自然小调音阶,在吉他指板上弹奏:

     G  A  Bb C  D  Eb F  G  F  Eb D  C  Bb A  G
E|---------------------------------------------------|
B|---------------------------------------------------|
G|---------------------------------------------------|
D|---------------------------------------------------|
A|---------------------------------------------------|
E|---3--5--6--8--10-11-13-15-13-11-10-8--6--5--3-----|
下面是较容易弹奏的方式,在多根弦上同一把位演奏:


     G  A  Bb C  D  Eb F  G  F  Eb D  C  Bb A  G
E|---------------------------------------------------|
B|---------------------------------------------------|
G|---------------------------------------------------|
D|---------------------3--5--3-----------------------|
A|------------3--5--6-----------6--5--3--------------|
E|---3--5--6-----------------------------6--5--3-----|
下面是在G小调中的一个licks:
     G  D  G   A Bb  D Bb  A       G  D  G   A Bb  D Bb  A
E|-----10-----------10---------|-----10-----------10---------|
B|---8-----8--10-11----11-10---|---8-----8--10-11----11-10---|
G|-----------------------------|-----------------------------|
D|-----------------------------|-----------------------------|
A|-----------------------------|-----------------------------|
E|-----------------------------|-----------------------------|

当你熟悉了小调音阶的指型模块后,你可以换到其它调中练习弹奏,只要将指型模块在吉他指板上移动到其它把位弹奏即可。下面是一些在F#小调中的licks:

 

 

 

将摇滚金属 - 第一课加入网摘:

365Key  | 新浪ViVi  | 和讯网摘  | 天极网摘  | POCO网摘 

摇滚金属 - 第一课文章录入:吉他教程录入:admin    责任编辑:admin 

...
  • 上一篇吉他教程:
  • 下一篇吉他教程:
  • 发表评论】【加入收藏】【告诉好友】【打印此文】【关闭窗口